Here comes the sun tab Essay example

Submitted By Kyle-Hague
Words: 2177
Pages: 9

| CAPO ON SEVENTH FRET |
INTRO
D Dsus2 D Dsus2 G G6 G
|--2-----0--2--------|-------2--0----------------|---------0-----------0--|
|--3--3-----------3--|-----------------3-----0---|---------0-----3-----0--|
|--2--------------2--|-----------------2-----0---|---3-----0-----0-----0--|
|--0-----------0-----|-0--0---------0--------0---|---0-----0-----0-----0--|
|--------------------|-----------------------2---|------2--2--2--2--2-----|
|--------------------|--------------------0--3---|-3-------3-----3--------| A7 A7sus2 A7 A7sus4 A D Dsus2 D
|------------------0--------|------2-----0--2------|
|-2--0----2--3-----------2--|------3--3---------3--|
|-0-------0-----0--------2--|------2---------------|
|-2-------2-----2-----2--2--|--0---0---------------|
|-0-------0-----0-----------|----------------------|
|---------------------------|----------------------| Dsus2 G Gmaj7 G6 G/B A7
|--------2--0--------------|-----2-----0------------------|
|-----------------3-----0--|-----0------------3-----2-----|
|-----------------------0--|-----0------------0-----0-----| (rest)
|--0--0--------0--------0--|-----0------------0-----2-----|
|-----------------------2--|-----3---------2--2--0--0-----|
|--------------------0--3--|--3--3--3---------------------|
D Dsus2 D Dsus2 D G Gmaj7 G6 Gmaj7 E7 CHORUS Here comes the ...
|--2--0-----2-------|----2------0--2------|----2--0-----2---------|
|---------------3---|-------3----------0--|-----------------3-----|
|-------------------|---------------------|-----------------------|
|-------------------|---------------------|-----------------------|
|-------------------|---------------------|-----------------------|
|-------------------|---------------------|-----------------------|

D Dsus2 D and I___ say_ "...
|--------------------|----2-----0---------------|
|--3--3----3-----3---|----------------3---------|
|--------------------|----------------------2---|
|--------------------|--0----0-----0-----0------|
|--------------------|--------------------------|
|--------------------|--------------------------|

|-------0--------0--------|--0--------0-------------||
|----3--------3--------3--|--------3-----3\2--------||
|-4--------2--------0-----|-----2-------------4\2---||
|-------------------------|-------------------------||
|-------------------------|-------------------------||
|-------------------------|-------------------------||
VERSE 1 and 2
D Dsus2 D D Dsus2 G G6 G
1. Little darling, ...
2. Little darling, ...
|--2------0--2------|-------2--0-----------|---------0------------|
|-----3----------3--|-(3)----------3----0--|------3-------3---0---|
|-------------------|----------------------|----------------------|
|-------------------|----------------------|----------------------|
|-------------------|----------------------|----------------------|
|-------------------|----------------------|----------------------|
A7 A7sus2 A7 A7sus4 A7 D Dsus2 D Dsus2 G --- ter; \ --- ces; / Lit-tle darling, ...
|-------------------0------|----2--2--0--2------|-------2--0-------------|
|-2---0----2--3---------2--|-----------------3--|--(3)---------3----0----|
|--------------------------|--------------------|------------------------|
|--------------------------|--------------------|------------------------|
|--------------------------|--------------------|------------------------|
|--------------------------|--------------------|------------------------|

G6 G A7 A7sus4 since its ...
|-2--------0-------------|-----------------------||…